ISO-10303-21;
HEADER;
FILE_DESCRIPTION (( 'STEP AP203' ),
    '1' );
FILE_NAME ('Q-AZHWP-25.4-532-M.STEP',
    '2020-12-22T09:10:24',
    ( '' ),
    ( '' ),
    'SwSTEP 2.0',
    'SolidWorks 2020',
    '' );
FILE_SCHEMA (( 'CONFIG_CONTROL_DESIGN' ));
ENDSEC;

DATA;
#1 = COORDINATED_UNIVERSAL_TIME_OFFSET ( 8, 0, .AHEAD. ) ;
#2 = PERSON_AND_ORGANIZATION ( #128, #8 ) ;
#3 = COORDINATED_UNIVERSAL_TIME_OFFSET ( 8, 0, .AHEAD. ) ;
#4 = CC_DESIGN_PERSON_AND_ORGANIZATION_ASSIGNMENT ( #15, #99, ( #109 ) ) ;
#5 = DIRECTION ( 'NONE',  ( -1.000000000000000000, 0.000000000000000000, -0.000000000000000000 ) ) ;
#6 = ORIENTED_EDGE ( 'NONE', *, *, #87, .F. ) ;
#7 = ORIENTED_EDGE ( 'NONE', *, *, #97, .T. ) ;
#8 = ORGANIZATION ( 'UNSPECIFIED', 'UNSPECIFIED', '' ) ;
#9 = APPLICATION_CONTEXT ( 'configuration controlled 3d designs of mechanical parts and assemblies' ) ;
#10 = FACE_OUTER_BOUND ( 'NONE', #85, .T. ) ;
#11 = AXIS2_PLACEMENT_3D ( 'NONE', #168, #5, #55 ) ;
#12 = CC_DESIGN_PERSON_AND_ORGANIZATION_ASSIGNMENT ( #75, #146, ( #64 ) ) ;
#13 = DIRECTION ( 'NONE',  ( -1.000000000000000000, -0.000000000000000000, -0.000000000000000000 ) ) ;
#14 = CALENDAR_DATE ( 2020, 22, 12 ) ;
#15 = PERSON_AND_ORGANIZATION ( #128, #8 ) ;
#16 = PERSON_AND_ORGANIZATION ( #128, #8 ) ;
#17 = VECTOR ( 'NONE', #80, 1000.000000000000000 ) ;
#18 = CARTESIAN_POINT ( 'NONE',  ( -1.614212418857619014, 0.000000000000000000, 0.000000000000000000 ) ) ;
#19 = CARTESIAN_POINT ( 'NONE',  ( 3.000000000000000000, 0.000000000000000000, 0.000000000000000000 ) ) ;
#20 = ORIENTED_EDGE ( 'NONE', *, *, #170, .F. ) ;
#21 = APPLICATION_PROTOCOL_DEFINITION ( 'international standard', 'config_control_design', 1994, #9 ) ;
#22 = CC_DESIGN_APPROVAL ( #34, ( #69 ) ) ;
#23 =( GEOMETRIC_REPRESENTATION_CONTEXT ( 3 ) GLOBAL_UNCERTAINTY_ASSIGNED_CONTEXT ( ( #76 ) ) GLOBAL_UNIT_ASSIGNED_CONTEXT ( ( #58, #112, #158 ) ) REPRESENTATION_CONTEXT ( 'NONE', 'WORKASPACE' ) );
#24 = CC_DESIGN_PERSON_AND_ORGANIZATION_ASSIGNMENT ( #16, #106, ( #153 ) ) ;
#25 = LOCAL_TIME ( 17, 10, 24.00000000000000000, #1 ) ;
#26 = COORDINATED_UNIVERSAL_TIME_OFFSET ( 8, 0, .AHEAD. ) ;
#27 = PERSON_AND_ORGANIZATION ( #128, #8 ) ;
#28 = CARTESIAN_POINT ( 'NONE',  ( -1.614212418857619014, 0.000000000000000000, 15.00000000000000000 ) ) ;
#29 = AXIS2_PLACEMENT_3D ( 'NONE', #30, #135, #108 ) ;
#30 = CARTESIAN_POINT ( 'NONE',  ( 3.000000000000000000, 0.000000000000000000, 0.000000000000000000 ) ) ;
#31 = FACE_OUTER_BOUND ( 'NONE', #91, .T. ) ;
#32 = CARTESIAN_POINT ( 'NONE',  ( 3.000000000000000000, 0.000000000000000000, 15.00000000000000000 ) ) ;
#33 = DIRECTION ( 'NONE',  ( 0.000000000000000000, 0.000000000000000000, 1.000000000000000000 ) ) ;
#34 = APPROVAL ( #61, 'UNSPECIFIED' ) ;
#35 = DATE_AND_TIME ( #89, #98 ) ;
#36 = AXIS2_PLACEMENT_3D ( 'NONE', #129, #13, #33 ) ;
#37 = ORIENTED_EDGE ( 'NONE', *, *, #170, .T. ) ;
#38 = DIRECTION ( 'NONE',  ( 0.000000000000000000, 0.000000000000000000, 1.000000000000000000 ) ) ;
#39 = LINE ( 'NONE', #28, #17 ) ;
#40 = DIRECTION ( 'NONE',  ( 1.000000000000000000, 0.000000000000000000, 0.000000000000000000 ) ) ;
#41 = DIRECTION ( 'NONE',  ( 0.000000000000000000, 0.000000000000000000, 1.000000000000000000 ) ) ;
#42 = CYLINDRICAL_SURFACE ( 'NONE', #173, 15.00000000000000000 ) ;
#43 = LOCAL_TIME ( 17, 10, 24.00000000000000000, #3 ) ;
#44 = AXIS2_PLACEMENT_3D ( 'NONE', #19, #137, #124 ) ;
#45 = EDGE_CURVE ( 'NONE', #105, #71, #81, .T. ) ;
#46 = AXIS2_PLACEMENT_3D ( 'NONE', #111, #40, #93 ) ;
#47 = MECHANICAL_CONTEXT ( 'NONE', #9, 'mechanical' ) ;
#48 = APPROVAL ( #50, 'UNSPECIFIED' ) ;
#49 = DATE_AND_TIME ( #14, #25 ) ;
#50 = APPROVAL_STATUS ( 'not_yet_approved' ) ;
#51 = PRODUCT_DEFINITION_SHAPE ( 'NONE', 'NONE',  #153 ) ;
#52 = ORIENTED_EDGE ( 'NONE', *, *, #172, .F. ) ;
#53 = DATE_AND_TIME ( #174, #43 ) ;
#54 = ORIENTED_EDGE ( 'NONE', *, *, #102, .T. ) ;
#55 = DIRECTION ( 'NONE',  ( -0.000000000000000000, 0.000000000000000000, 1.000000000000000000 ) ) ;
#56 = CARTESIAN_POINT ( 'NONE',  ( -1.614212418857619014, 0.000000000000000000, 0.000000000000000000 ) ) ;
#57 = CARTESIAN_POINT ( 'NONE',  ( -3.000000000000000000, 0.000000000000000000, 15.00000000000000000 ) ) ;
#58 =( LENGTH_UNIT ( ) NAMED_UNIT ( * ) SI_UNIT ( .MILLI., .METRE. ) );
#59 = LINE ( 'NONE', #159, #145 ) ;
#60 = LOCAL_TIME ( 17, 10, 24.00000000000000000, #103 ) ;
#61 = APPROVAL_STATUS ( 'not_yet_approved' ) ;
#62 = APPROVAL_DATE_TIME ( #74, #34 ) ;
#63 = PERSON_AND_ORGANIZATION_ROLE ( 'classification_officer' ) ;
#64 = PRODUCT ( 'Q-AZHWP-25.4-532-M', 'Q-AZHWP-25.4-532-M', '', ( #47 ) ) ;
#65 = DIRECTION ( 'NONE',  ( -1.000000000000000000, -0.000000000000000000, -0.000000000000000000 ) ) ;
#66 = CYLINDRICAL_SURFACE ( 'NONE', #70, 15.00000000000000000 ) ;
#67 = CARTESIAN_POINT ( 'NONE',  ( -3.000000000000000000, 0.000000000000000000, 0.000000000000000000 ) ) ;
#68 = ADVANCED_FACE ( 'NONE', ( #31 ), #83, .F. ) ;
#69 = SECURITY_CLASSIFICATION ( '', '', #73 ) ;
#70 = AXIS2_PLACEMENT_3D ( 'NONE', #56, #138, #126 ) ;
#71 = VERTEX_POINT ( 'NONE', #32 ) ;
#72 = CIRCLE ( 'NONE', #157, 15.00000000000000000 ) ;
#73 = SECURITY_CLASSIFICATION_LEVEL ( 'unclassified' ) ;
#74 = DATE_AND_TIME ( #77, #122 ) ;
#75 = PERSON_AND_ORGANIZATION ( #128, #8 ) ;
#76 = UNCERTAINTY_MEASURE_WITH_UNIT (LENGTH_MEASURE( 1.000000000000000082E-05 ), #58, 'distance_accuracy_value', 'NONE');
#77 = CALENDAR_DATE ( 2020, 22, 12 ) ;
#78 = CARTESIAN_POINT ( 'NONE',  ( 0.000000000000000000, 0.000000000000000000, 0.000000000000000000 ) ) ;
#79 = DESIGN_CONTEXT ( 'detailed design', #141, 'design' ) ;
#80 = DIRECTION ( 'NONE',  ( -1.000000000000000000, -0.000000000000000000, -0.000000000000000000 ) ) ;
#81 = CIRCLE ( 'NONE', #44, 15.00000000000000000 ) ;
#82 = CC_DESIGN_APPROVAL ( #48, ( #153 ) ) ;
#83 = PLANE ( 'NONE',  #11 ) ;
#84 = DIRECTION ( 'NONE',  ( -1.000000000000000000, -0.000000000000000000, -0.000000000000000000 ) ) ;
#85 = EDGE_LOOP ( 'NONE', ( #20, #171, #110, #52 ) ) ;
#86 = CC_DESIGN_APPROVAL ( #120, ( #109 ) ) ;
#87 = EDGE_CURVE ( 'NONE', #71, #152, #39, .T. ) ;
#88 = CIRCLE ( 'NONE', #36, 15.00000000000000000 ) ;
#89 = CALENDAR_DATE ( 2020, 22, 12 ) ;
#90 = CC_DESIGN_PERSON_AND_ORGANIZATION_ASSIGNMENT ( #147, #134, ( #109 ) ) ;
#91 = EDGE_LOOP ( 'NONE', ( #166, #149 ) ) ;
#92 = APPLICATION_PROTOCOL_DEFINITION ( 'international standard', 'config_control_design', 1994, #141 ) ;
#93 = DIRECTION ( 'NONE',  ( 0.000000000000000000, 0.000000000000000000, -1.000000000000000000 ) ) ;
#94 = APPROVAL_PERSON_ORGANIZATION ( #27, #120, #143 ) ;
#95 = ORIENTED_EDGE ( 'NONE', *, *, #102, .F. ) ;
#96 = EDGE_LOOP ( 'NONE', ( #54, #136 ) ) ;
#97 = EDGE_CURVE ( 'NONE', #71, #105, #140, .T. ) ;
#98 = LOCAL_TIME ( 17, 10, 24.00000000000000000, #131 ) ;
#99 = PERSON_AND_ORGANIZATION_ROLE ( 'design_supplier' ) ;
#100 = DATE_TIME_ROLE ( 'creation_date' ) ;
#101 = DATE_TIME_ROLE ( 'classification_date' ) ;
#102 = EDGE_CURVE ( 'NONE', #152, #154, #72, .T. ) ;
#103 = COORDINATED_UNIVERSAL_TIME_OFFSET ( 8, 0, .AHEAD. ) ;
#104 = CC_DESIGN_SECURITY_CLASSIFICATION ( #69, ( #109 ) ) ;
#105 = VERTEX_POINT ( 'NONE', #125 ) ;
#106 = PERSON_AND_ORGANIZATION_ROLE ( 'creator' ) ;
#107 = PLANE ( 'NONE',  #46 ) ;
#108 = DIRECTION ( 'NONE',  ( 0.000000000000000000, 0.000000000000000000, 1.000000000000000000 ) ) ;
#109 = PRODUCT_DEFINITION_FORMATION_WITH_SPECIFIED_SOURCE ( 'ANY', '', #64, .NOT_KNOWN. ) ;
#110 = ORIENTED_EDGE ( 'NONE', *, *, #87, .T. ) ;
#111 = CARTESIAN_POINT ( 'NONE',  ( -3.000000000000000888, 12.69999999999999929, 0.000000000000000000 ) ) ;
#112 =( NAMED_UNIT ( * ) PLANE_ANGLE_UNIT ( ) SI_UNIT ( $, .RADIAN. ) );
#113 = CC_DESIGN_DATE_AND_TIME_ASSIGNMENT ( #49, #101, ( #69 ) ) ;
#114 = DIRECTION ( 'NONE',  ( -1.000000000000000000, -0.000000000000000000, -0.000000000000000000 ) ) ;
#115 = CARTESIAN_POINT ( 'NONE',  ( -3.000000000000000000, 1.836970198721029589E-15, -15.00000000000000000 ) ) ;
#116 = APPROVAL_PERSON_ORGANIZATION ( #163, #34, #161 ) ;
#117 = ADVANCED_BREP_SHAPE_REPRESENTATION ( 'Q-AZHWP-25.4-532-M', ( #127, #160 ), #23 ) ;
#118 = SHAPE_DEFINITION_REPRESENTATION ( #51, #117 ) ;
#119 = APPROVAL_DATE_TIME ( #121, #48 ) ;
#120 = APPROVAL ( #165, 'UNSPECIFIED' ) ;
#121 = DATE_AND_TIME ( #144, #60 ) ;
#122 = LOCAL_TIME ( 17, 10, 24.00000000000000000, #26 ) ;
#123 = FACE_OUTER_BOUND ( 'NONE', #96, .T. ) ;
#124 = DIRECTION ( 'NONE',  ( 0.000000000000000000, 0.000000000000000000, 1.000000000000000000 ) ) ;
#125 = CARTESIAN_POINT ( 'NONE',  ( 3.000000000000000000, 1.836970198721029589E-15, -15.00000000000000000 ) ) ;
#126 = DIRECTION ( 'NONE',  ( 0.000000000000000000, 0.000000000000000000, 1.000000000000000000 ) ) ;
#127 = MANIFOLD_SOLID_BREP ( 'Ðý×', #164 ) ;
#128 = PERSON ( 'UNSPECIFIED', 'UNSPECIFIED', 'UNSPECIFIED', ('UNSPECIFIED'), ('UNSPECIFIED'), ('UNSPECIFIED') ) ;
#129 = CARTESIAN_POINT ( 'NONE',  ( -3.000000000000000000, 0.000000000000000000, 0.000000000000000000 ) ) ;
#130 = ADVANCED_FACE ( 'NONE', ( #10 ), #42, .T. ) ;
#131 = COORDINATED_UNIVERSAL_TIME_OFFSET ( 8, 0, .AHEAD. ) ;
#132 = ADVANCED_FACE ( 'NONE', ( #123 ), #107, .F. ) ;
#133 = APPROVAL_ROLE ( '' ) ;
#134 = PERSON_AND_ORGANIZATION_ROLE ( 'creator' ) ;
#135 = DIRECTION ( 'NONE',  ( -1.000000000000000000, -0.000000000000000000, -0.000000000000000000 ) ) ;
#136 = ORIENTED_EDGE ( 'NONE', *, *, #172, .T. ) ;
#137 = DIRECTION ( 'NONE',  ( -1.000000000000000000, -0.000000000000000000, -0.000000000000000000 ) ) ;
#138 = DIRECTION ( 'NONE',  ( -1.000000000000000000, -0.000000000000000000, -0.000000000000000000 ) ) ;
#139 = ADVANCED_FACE ( 'NONE', ( #151 ), #66, .T. ) ;
#140 = CIRCLE ( 'NONE', #29, 15.00000000000000000 ) ;
#141 = APPLICATION_CONTEXT ( 'configuration controlled 3d designs of mechanical parts and assemblies' ) ;
#142 = CC_DESIGN_PERSON_AND_ORGANIZATION_ASSIGNMENT ( #162, #63, ( #69 ) ) ;
#143 = APPROVAL_ROLE ( '' ) ;
#144 = CALENDAR_DATE ( 2020, 22, 12 ) ;
#145 = VECTOR ( 'NONE', #114, 1000.000000000000000 ) ;
#146 = PERSON_AND_ORGANIZATION_ROLE ( 'design_owner' ) ;
#147 = PERSON_AND_ORGANIZATION ( #128, #8 ) ;
#148 = PRODUCT_RELATED_PRODUCT_CATEGORY ( 'detail', '', ( #64 ) ) ;
#149 = ORIENTED_EDGE ( 'NONE', *, *, #45, .F. ) ;
#150 = APPROVAL_DATE_TIME ( #35, #120 ) ;
#151 = FACE_OUTER_BOUND ( 'NONE', #169, .T. ) ;
#152 = VERTEX_POINT ( 'NONE', #57 ) ;
#153 = PRODUCT_DEFINITION ( 'UNKNOWN', '', #109, #79 ) ;
#154 = VERTEX_POINT ( 'NONE', #115 ) ;
#155 = CC_DESIGN_DATE_AND_TIME_ASSIGNMENT ( #53, #100, ( #153 ) ) ;
#156 = DIRECTION ( 'NONE',  ( 0.000000000000000000, 0.000000000000000000, 1.000000000000000000 ) ) ;
#157 = AXIS2_PLACEMENT_3D ( 'NONE', #67, #84, #41 ) ;
#158 =( NAMED_UNIT ( * ) SI_UNIT ( $, .STERADIAN. ) SOLID_ANGLE_UNIT ( ) );
#159 = CARTESIAN_POINT ( 'NONE',  ( -1.614212418857619014, 1.836970198721029589E-15, -15.00000000000000000 ) ) ;
#160 = AXIS2_PLACEMENT_3D ( 'NONE', #78, #38, #167 ) ;
#161 = APPROVAL_ROLE ( '' ) ;
#162 = PERSON_AND_ORGANIZATION ( #128, #8 ) ;
#163 = PERSON_AND_ORGANIZATION ( #128, #8 ) ;
#164 = CLOSED_SHELL ( 'NONE', ( #139, #68, #130, #132 ) ) ;
#165 = APPROVAL_STATUS ( 'not_yet_approved' ) ;
#166 = ORIENTED_EDGE ( 'NONE', *, *, #97, .F. ) ;
#167 = DIRECTION ( 'NONE',  ( 1.000000000000000000, 0.000000000000000000, 0.000000000000000000 ) ) ;
#168 = CARTESIAN_POINT ( 'NONE',  ( 3.000000000000000888, 12.69999999999999929, 0.000000000000000000 ) ) ;
#169 = EDGE_LOOP ( 'NONE', ( #7, #37, #95, #6 ) ) ;
#170 = EDGE_CURVE ( 'NONE', #105, #154, #59, .T. ) ;
#171 = ORIENTED_EDGE ( 'NONE', *, *, #45, .T. ) ;
#172 = EDGE_CURVE ( 'NONE', #154, #152, #88, .T. ) ;
#173 = AXIS2_PLACEMENT_3D ( 'NONE', #18, #65, #156 ) ;
#174 = CALENDAR_DATE ( 2020, 22, 12 ) ;
#175 = APPROVAL_PERSON_ORGANIZATION ( #2, #48, #133 ) ;
ENDSEC;
END-ISO-10303-21;
